  0
SECTION
  2
HEADER
  9
$ACADVER
  1
AC1015
  9
$ACADMAINTVER
 70
     6
  9
$DWGCODEPAGE
  3
ANSI_1254
  9
$INSBASE
 10
0.0
 20
0.0
 30
0.0
  9
$EXTMIN
 10
0.0
 20
0.0
 30
0.0
  9
$EXTMAX
 10
279.4
 20
215.9
 30
0.0
  9
$LIMMIN
 10
0.0
 20
0.0
  9
$LIMMAX
 10
279.4
 20
215.9
  9
$ORTHOMODE
 70
     0
  9
$REGENMODE
 70
     1
  9
$FILLMODE
 70
     1
  9
$QTEXTMODE
 70
     0
  9
$MIRRTEXT
 70
     1
  9
$LTSCALE
 40
1.0
  9
$ATTMODE
 70
     1
  9
$TEXTSIZE
 40
3.5
  9
$TRACEWID
 40
1.0
  9
$TEXTSTYLE
  7
Standard
  9
$CLAYER
  8
0
  9
$CELTYPE
  6
ByLayer
  9
$CECOLOR
 62
   256
  9
$CELTSCALE
 40
1.0
  9
$DISPSILH
 70
     0
  9
$DIMSCALE
 40
1.0
  9
$DIMASZ
 40
3.5
  9
$DIMEXO
 40
1.0
  9
$DIMDLI
 40
3.75
  9
$DIMRND
 40
0.0
  9
$DIMDLE
 40
0.0
  9
$DIMEXE
 40
1.0
  9
$DIMTP
 40
0.0
  9
$DIMTM
 40
0.0
  9
$DIMTXT
 40
3.5
  9
$DIMCEN
 40
2.5
  9
$DIMTSZ
 40
0.0
  9
$DIMTOL
 70
     0
  9
$DIMLIM
 70
     0
  9
$DIMTIH
 70
     1
  9
$DIMTOH
 70
     1
  9
$DIMSE1
 70
     0
  9
$DIMSE2
 70
     0
  9
$DIMTAD
 70
     1
  9
$DIMZIN
 70
     0
  9
$DIMBLK
  1

  9
$DIMASO
 70
     1
  9
$DIMSHO
 70
     1
  9
$DIMPOST
  1

  9
$DIMAPOST
  1

  9
$DIMALT
 70
     0
  9
$DIMALTD
 70
     3
  9
$DIMALTF
 40
0.0393700787
  9
$DIMLFAC
 40
1.0
  9
$DIMTOFL
 70
     1
  9
$DIMTVP
 40
0.0
  9
$DIMTIX
 70
     0
  9
$DIMSOXD
 70
     0
  9
$DIMSAH
 70
     0
  9
$DIMBLK1
  1

  9
$DIMBLK2
  1

  9
$DIMSTYLE
  2
ISO-25
  9
$DIMCLRD
 70
     0
  9
$DIMCLRE
 70
     0
  9
$DIMCLRT
 70
     0
  9
$DIMTFAC
 40
1.0
  9
$DIMGAP
 40
1.524
  9
$DIMJUST
 70
     0
  9
$DIMSD1
 70
     0
  9
$DIMSD2
 70
     0
  9
$DIMTOLJ
 70
     0
  9
$DIMTZIN
 70
     0
  9
$DIMALTZ
 70
     0
  9
$DIMALTTZ
 70
     0
  9
$DIMUPT
 70
     0
  9
$DIMDEC
 70
     2
  9
$DIMTDEC
 70
     2
  9
$DIMALTU
 70
     2
  9
$DIMALTTD
 70
     3
  9
$DIMTXSTY
  7
Standard
  9
$DIMAUNIT
 70
     0
  9
$DIMADEC
 70
     2
  9
$DIMALTRND
 40
0.0
  9
$DIMAZIN
 70
     0
  9
$DIMDSEP
 70
    44
  9
$DIMATFIT
 70
     3
  9
$DIMFRAC
 70
     0
  9
$DIMLDRBLK
  1

  9
$DIMLUNIT
 70
     2
  9
$DIMLWD
 70
    -2
  9
$DIMLWE
 70
    -2
  9
$DIMTMOVE
 70
     0
  9
$LUNITS
 70
     2
  9
$LUPREC
 70
     2
  9
$SKETCHINC
 40
1.0
  9
$FILLETRAD
 40
10.0
  9
$AUNITS
 70
     0
  9
$AUPREC
 70
     2
  9
$MENU
  1
.
  9
$ELEVATION
 40
0.0
  9
$PELEVATION
 40
0.0
  9
$THICKNESS
 40
0.0
  9
$LIMCHECK
 70
     0
  9
$CHAMFERA
 40
0.0
  9
$CHAMFERB
 40
0.0
  9
$CHAMFERC
 40
0.0
  9
$CHAMFERD
 40
0.0
  9
$SKPOLY
 70
     0
  9
$TDCREATE
 40
2458985.718003912
  9
$TDUCREATE
 40
2458985.593003912
  9
$TDUPDATE
 40
2458985.718004248
  9
$TDUUPDATE
 40
2458985.593004248
  9
$TDINDWG
 40
0.0000000116
  9
$TDUSRTIMER
 40
0.0000000116
  9
$USRTIMER
 70
     1
  9
$ANGBASE
 50
0.0
  9
$ANGDIR
 70
     0
  9
$PDMODE
 70
     0
  9
$PDSIZE
 40
-1.0
  9
$PLINEWID
 40
0.0
  9
$SPLFRAME
 70
     0
  9
$SPLINETYPE
 70
     6
  9
$SPLINESEGS
 70
     8
  9
$HANDSEED
  5
DD
  9
$SURFTAB1
 70
     6
  9
$SURFTAB2
 70
     6
  9
$SURFTYPE
 70
     6
  9
$SURFU
 70
     6
  9
$SURFV
 70
     6
  9
$UCSBASE
  2

  9
$UCSNAME
  2

  9
$UCSORG
 10
0.0
 20
0.0
 30
0.0
  9
$UCSXDIR
 10
1.0
 20
0.0
 30
0.0
  9
$UCSYDIR
 10
0.0
 20
1.0
 30
0.0
  9
$UCSORTHOREF
  2

  9
$UCSORTHOVIEW
 70
     0
  9
$UCSORGTOP
 10
0.0
 20
0.0
 30
0.0
  9
$UCSORGBOTTOM
 10
0.0
 20
0.0
 30
0.0
  9
$UCSORGLEFT
 10
0.0
 20
0.0
 30
0.0
  9
$UCSORGRIGHT
 10
0.0
 20
0.0
 30
0.0
  9
$UCSORGFRONT
 10
0.0
 20
0.0
 30
0.0
  9
$UCSORGBACK
 10
0.0
 20
0.0
 30
0.0
  9
$PUCSBASE
  2

  9
$PUCSNAME
  2

  9
$PUCSORG
 10
0.0
 20
0.0
 30
0.0
  9
$PUCSXDIR
 10
1.0
 20
0.0
 30
0.0
  9
$PUCSYDIR
 10
0.0
 20
1.0
 30
0.0
  9
$PUCSORTHOREF
  2

  9
$PUCSORTHOVIEW
 70
     0
  9
$PUCSORGTOP
 10
0.0
 20
0.0
 30
0.0
  9
$PUCSORGBOTTOM
 10
0.0
 20
0.0
 30
0.0
  9
$PUCSORGLEFT
 10
0.0
 20
0.0
 30
0.0
  9
$PUCSORGRIGHT
 10
0.0
 20
0.0
 30
0.0
  9
$PUCSORGFRONT
 10
0.0
 20
0.0
 30
0.0
  9
$PUCSORGBACK
 10
0.0
 20
0.0
 30
0.0
  9
$USERI1
 70
     0
  9
$USERI2
 70
     0
  9
$USERI3
 70
     0
  9
$USERI4
 70
     0
  9
$USERI5
 70
     0
  9
$USERR1
 40
0.0
  9
$USERR2
 40
0.0
  9
$USERR3
 40
0.0
  9
$USERR4
 40
0.0
  9
$USERR5
 40
0.0
  9
$WORLDVIEW
 70
     1
  9
$SHADEDGE
 70
     3
  9
$SHADEDIF
 70
    70
  9
$TILEMODE
 70
     1
  9
$MAXACTVP
 70
    64
  9
$PINSBASE
 10
0.0
 20
0.0
 30
0.0
  9
$PLIMCHECK
 70
     0
  9
$PEXTMIN
 10
1.0000000000E+20
 20
1.0000000000E+20
 30
1.0000000000E+20
  9
$PEXTMAX
 10
-1.0000000000E+20
 20
-1.0000000000E+20
 30
-1.0000000000E+20
  9
$PLIMMIN
 10
0.0
 20
0.0
  9
$PLIMMAX
 10
420.0
 20
297.0
  9
$UNITMODE
 70
     0
  9
$VISRETAIN
 70
     1
  9
$PLINEGEN
 70
     0
  9
$PSLTSCALE
 70
     1
  9
$TREEDEPTH
 70
  3020
  9
$CMLSTYLE
  2
Standard
  9
$CMLJUST
 70
     0
  9
$CMLSCALE
 40
20.0
  9
$PROXYGRAPHICS
 70
     1
  9
$MEASUREMENT
 70
     1
  9
$CELWEIGHT
370
    -1
  9
$ENDCAPS
280
     0
  9
$JOINSTYLE
280
     0
  9
$LWDISPLAY
290
     1
  9
$INSUNITS
 70
     4
  9
$HYPERLINKBASE
  1

  9
$STYLESHEET
  1

  9
$XEDIT
290
     1
  9
$CEPSNTYPE
380
     0
  9
$PSTYLEMODE
290
     1
  9
$FINGERPRINTGUID
  2
{fd8ccd45-0910-47a0-9199-21257eaf3d9c}
  9
$VERSIONGUID
  2
{FAEB1C32-E019-11D5-929B-00C0DF256EC4}
  9
$EXTNAMES
290
     1
  9
$PSVPSCALE
 40
0.0
  9
$OLESTARTUP
290
     0
  0
ENDSEC
  0
SECTION
  2
CLASSES
  0
CLASS
  1
ACDBDICTIONARYWDFLT
  2
AcDbDictionaryWithDefault
  3
ObjectDBX Classes
 90
        0
280
     0
281
     0
  0
CLASS
  1
VISUALSTYLE
  2
AcDbVisualStyle
  3
ObjectDBX Classes
 90
     4095
280
     0
281
     0
  0
CLASS
  1
MATERIAL
  2
AcDbMaterial
  3
ObjectDBX Classes
 90
     1153
280
     0
281
     0
  0
CLASS
  1
SCALE
  2
AcDbScale
  3
ObjectDBX Classes
 90
     1153
280
     0
281
     0
  0
CLASS
  1
TABLESTYLE
  2
AcDbTableStyle
  3
ObjectDBX Classes
 90
     4095
280
     0
281
     0
  0
CLASS
  1
MLEADERSTYLE
  2
AcDbMLeaderStyle
  3
ACDB_MLEADERSTYLE_CLASS
 90
     4095
280
     0
281
     0
  0
CLASS
  1
SUN
  2
AcDbSun
  3
SCENEOE
 90
     1153
280
     0
281
     0
  0
CLASS
  1
ACDBPLACEHOLDER
  2
AcDbPlaceHolder
  3
ObjectDBX Classes
 90
        0
280
     0
281
     0
  0
CLASS
  1
LAYOUT
  2
AcDbLayout
  3
ObjectDBX Classes
 90
        0
280
     0
281
     0
  0
ENDSEC
  0
SECTION
  2
TABLES
  0
TABLE
  2
VPORT
  5
8
330
0
100
AcDbSymbolTable
 70
     1
  0
VPORT
  5
29
330
8
100
AcDbSymbolTableRecord
100
AcDbViewportTableRecord
  2
*Active
 70
     0
 10
0.0
 20
0.0
 11
1.0
 21
1.0
 12
139.7
 22
107.95
 13
0.0
 23
0.0
 14
10.0
 24
10.0
 15
10.0
 25
10.0
 16
0.0
 26
0.0
 36
1.0
 17
0.0
 27
0.0
 37
0.0
 40
215.9
 41
1.2941176471
 42
50.0
 43
0.0
 44
0.0
 50
0.0
 51
0.0
 71
     0
 72
  2000
 73
     1
 74
     3
 75
     0
 76
     0
 77
     0
 78
     0
281
     0
 65
     1
110
0.0
120
0.0
130
0.0
111
1.0
121
0.0
131
0.0
112
0.0
122
1.0
132
0.0
 79
     0
146
0.0
  0
ENDTAB
  0
TABLE
  2
LTYPE
  5
5
330
0
100
AcDbSymbolTable
 70
     6
  0
LTYPE
  5
14
330
5
100
AcDbSymbolTableRecord
100
AcDbLinetypeTableRecord
  2
ByBlock
 70
     0
  3

 72
    65
 73
     0
 40
0.0
  0
LTYPE
  5
15
330
5
100
AcDbSymbolTableRecord
100
AcDbLinetypeTableRecord
  2
ByLayer
 70
     0
  3

 72
    65
 73
     0
 40
0.0
  0
LTYPE
  5
16
330
5
100
AcDbSymbolTableRecord
100
AcDbLinetypeTableRecord
  2
Continuous
 70
     0
  3
Solid line
 72
    65
 73
     0
 40
0.0
  0
LTYPE
  5
6E
330
5
100
AcDbSymbolTableRecord
100
AcDbLinetypeTableRecord
  2
HIDDEN
 70
     0
  3
Hidden __ __ __ __ __ __ __ __ __ __ __ __ __ __
 72
    65
 73
     2
 40
1.905
 49
1.27
 74
     0
 49
-0.635
 74
     0
  0
LTYPE
  5
6F
330
5
100
AcDbSymbolTableRecord
100
AcDbLinetypeTableRecord
  2
PHANTOM
 70
     0
  3
Phantom ______  __  __  ______  __  __  ______
 72
    65
 73
     6
 40
12.7
 49
6.35
 74
     0
 49
-1.27
 74
     0
 49
1.27
 74
     0
 49
-1.27
 74
     0
 49
1.27
 74
     0
 49
-1.27
 74
     0
  0
LTYPE
  5
70
330
5
100
AcDbSymbolTableRecord
100
AcDbLinetypeTableRecord
  2
CENTER
 70
     0
  3
Center ____ _ ____ _ ____ _ ____ _ ____ _ ____
 72
    65
 73
     4
 40
10.16
 49
6.35
 74
     0
 49
-1.27
 74
     0
 49
1.27
 74
     0
 49
-1.27
 74
     0
  0
LTYPE
  5
71
330
5
100
AcDbSymbolTableRecord
100
AcDbLinetypeTableRecord
  2
CENTERX2
 70
     0
  3
Center (2x) ________  __  ________  __  _____
 72
    65
 73
     4
 40
20.32
 49
12.7
 74
     0
 49
-2.54
 74
     0
 49
2.54
 74
     0
 49
-2.54
 74
     0
  0
LTYPE
  5
72
330
5
100
AcDbSymbolTableRecord
100
AcDbLinetypeTableRecord
  2
DOT2
 70
     0
  3
Dot (.5x) ........................................
 72
    65
 73
     2
 40
0.635
 49
0.0
 74
     0
 49
-0.635
 74
     0
  0
ENDTAB
  0
TABLE
  2
LAYER
  5
2
330
0
100
AcDbSymbolTable
 70
    17
  0
LAYER
  5
10
330
2
100
AcDbSymbolTableRecord
100
AcDbLayerTableRecord
  2
0
 70
     0
 62
     7
  6
Continuous
370
    -3
390
F
  0
LAYER
  5
73
330
2
100
AcDbSymbolTableRecord
100
AcDbLayerTableRecord
  2
FORMAT
 70
     0
 62
     7
  6
Continuous
370
    -3
390
F
  0
LAYER
  5
74
330
2
100
AcDbSymbolTableRecord
100
AcDbLayerTableRecord
  2
YARDIMCI_GEOMETRI
 70
     0
 62
    -6
  6
Continuous
290
     0
370
    -3
390
F
  0
LAYER
  5
75
330
2
100
AcDbSymbolTableRecord
100
AcDbLayerTableRecord
  2
SAYFA_CERCEVESI
 70
     0
 62
     7
  6
Continuous
370
    25
390
F
  0
LAYER
  5
76
330
2
100
AcDbSymbolTableRecord
100
AcDbLayerTableRecord
  2
ANTET
 70
     0
 62
     7
  6
Continuous
370
    -3
390
F
  0
LAYER
  5
77
330
2
100
AcDbSymbolTableRecord
100
AcDbLayerTableRecord
  2
OLCU
 70
     0
 62
   150
  6
Continuous
370
    -3
390
F
  0
LAYER
  5
78
330
2
100
AcDbSymbolTableRecord
100
AcDbLayerTableRecord
  2
METIN
 70
     0
 62
    96
  6
Continuous
370
    -3
390
F
  0
LAYER
  5
79
330
2
100
AcDbSymbolTableRecord
100
AcDbLayerTableRecord
  2
BALON
 70
     0
 62
     5
  6
Continuous
370
    -3
390
F
  0
LAYER
  5
7A
330
2
100
AcDbSymbolTableRecord
100
AcDbLayerTableRecord
  2
VURGU
 70
     0
 62
     7
  6
Continuous
370
    -3
390
F
  0
LAYER
  5
7B
330
2
100
AcDbSymbolTableRecord
100
AcDbLayerTableRecord
  2
SILIK
 70
     0
 62
     7
  6
Continuous
370
    -3
390
F
  0
LAYER
  5
7C
330
2
100
AcDbSymbolTableRecord
100
AcDbLayerTableRecord
  2
MODEL
 70
     0
 62
     7
  6
Continuous
370
    -3
390
F
  0
LAYER
  5
7D
330
2
100
AcDbSymbolTableRecord
100
AcDbLayerTableRecord
  2
DETAYLANDıRMA
 70
     0
 62
   190
  6
Continuous
370
    -3
390
F
  0
LAYER
  5
7E
330
2
100
AcDbSymbolTableRecord
100
AcDbLayerTableRecord
  2
TOLERANS
 70
     0
 62
   230
  6
Continuous
370
    -3
390
F
  0
LAYER
  5
7F
330
2
100
AcDbSymbolTableRecord
100
AcDbLayerTableRecord
  2
MERKEZ_CIZGILERI
 70
     0
 62
    30
  6
Continuous
370
    -3
390
F
  0
LAYER
  5
80
330
2
100
AcDbSymbolTableRecord
100
AcDbLayerTableRecord
  2
KESIT-DETAY_CIZGILERI
 70
     0
 62
     7
  6
Continuous
370
    -3
390
F
  0
LAYER
  5
81
330
2
100
AcDbSymbolTableRecord
100
AcDbLayerTableRecord
  2
\U+041E\U+0421\U+0415\U+0412\U+042B\U+0415
 70
     0
 62
     7
  6
Continuous
370
    -3
390
F
  0
LAYER
  5
82
330
2
100
AcDbSymbolTableRecord
100
AcDbLayerTableRecord
  2
\U+0412\U+041E\U+0414\U+042F\U+041D\U+042B\U+0415_\U+0417\U+041D\U+0410\U+041A\U+0418
 70
     0
 62
    11
  6
Continuous
370
    -3
390
F
  0
ENDTAB
  0
TABLE
  2
STYLE
  5
3
330
0
100
AcDbSymbolTable
 70
     1
  0
STYLE
  5
11
330
3
100
AcDbSymbolTableRecord
100
AcDbTextStyleTableRecord
  2
Standard
 70
     0
 40
0.0
 41
1.0
 50
0.0
 71
     0
 42
3.5
  3
txt
  4

  0
ENDTAB
  0
TABLE
  2
VIEW
  5
6
330
0
100
AcDbSymbolTable
 70
     0
  0
ENDTAB
  0
TABLE
  2
UCS
  5
7
330
0
100
AcDbSymbolTable
 70
     0
  0
ENDTAB
  0
TABLE
  2
APPID
  5
9
330
0
100
AcDbSymbolTable
 70
     1
  0
APPID
  5
12
330
9
100
AcDbSymbolTableRecord
100
AcDbRegAppTableRecord
  2
ACAD
 70
     0
  0
ENDTAB
  0
TABLE
  2
DIMSTYLE
  5
A
330
0
100
AcDbSymbolTable
 70
     1
100
AcDbDimStyleTable
  0
DIMSTYLE
105
27
330
A
100
AcDbSymbolTableRecord
100
AcDbDimStyleTableRecord
  2
ISO-25
 70
     0
 41
2.5
 42
0.625
 43
3.75
 44
1.25
 73
     0
 74
     0
 77
     1
 78
     8
140
2.5
141
2.5
143
0.0393700787
147
0.625
171
     3
172
     1
178
     0
271
     2
272
     2
274
     3
278
    44
283
     0
284
     8
340
11
  0
ENDTAB
  0
TABLE
  2
BLOCK_RECORD
  5
1
330
0
100
AcDbSymbolTable
 70
     3
  0
BLOCK_RECORD
  5
1F
330
1
100
AcDbSymbolTableRecord
100
AcDbBlockTableRecord
  2
*Model_Space
340
22
  0
BLOCK_RECORD
  5
1B
330
1
100
AcDbSymbolTableRecord
100
AcDbBlockTableRecord
  2
*Paper_Space
340
1E
  0
BLOCK_RECORD
  5
23
330
1
100
AcDbSymbolTableRecord
100
AcDbBlockTableRecord
  2
*Paper_Space0
340
26
  0
BLOCK_RECORD
  5
AF
330
1
100
AcDbSymbolTableRecord
100
AcDbBlockTableRecord
  2
SW_CENTERMARKSYMBOL_0
340
0
102
{BLKREFS
331
BA
102
}
  0
BLOCK_RECORD
  5
C3
330
1
100
AcDbSymbolTableRecord
100
AcDbBlockTableRecord
  2
SW_CENTERMARKSYMBOL_1
340
0
102
{BLKREFS
331
CE
102
}
  0
ENDTAB
  0
ENDSEC
  0
SECTION
  2
BLOCKS
  0
BLOCK
  5
20
330
1F
100
AcDbEntity
  8
0
100
AcDbBlockBegin
  2
*Model_Space
 70
     0
 10
0.0
 20
0.0
 30
0.0
  3
*Model_Space
  1

  0
ENDBLK
  5
21
330
1F
100
AcDbEntity
  8
0
100
AcDbBlockEnd
  0
BLOCK
  5
1C
330
1B
100
AcDbEntity
 67
     1
  8
0
100
AcDbBlockBegin
  2
*Paper_Space
 70
     0
 10
0.0
 20
0.0
 30
0.0
  3
*Paper_Space
  1

  0
ENDBLK
  5
1D
330
1B
100
AcDbEntity
 67
     1
  8
0
100
AcDbBlockEnd
  0
BLOCK
  5
24
330
23
100
AcDbEntity
  8
0
100
AcDbBlockBegin
  2
*Paper_Space0
 70
     0
 10
0.0
 20
0.0
 30
0.0
  3
*Paper_Space0
  1

  0
ENDBLK
  5
25
330
23
100
AcDbEntity
  8
0
100
AcDbBlockEnd
  0
BLOCK
  5
B0
330
AF
100
AcDbEntity
  8
0
100
AcDbBlockBegin
  2
SW_CENTERMARKSYMBOL_0
 70
     0
 10
0.0
 20
0.0
 30
0.0
  3
SW_CENTERMARKSYMBOL_0
  1

  0
LINE
  5
B2
330
AF
100
AcDbEntity
  8
FORMAT
 62
     0
100
AcDbLine
 10
0.0
 20
0.0
 30
0.0
 11
0.0
 21
2.5
 31
0.0
  0
LINE
  5
B3
330
AF
100
AcDbEntity
  8
FORMAT
 62
     0
100
AcDbLine
 10
0.0
 20
0.0
 30
0.0
 11
-2.5
 21
0.0
 31
0.0
  0
LINE
  5
B4
330
AF
100
AcDbEntity
  8
FORMAT
 62
     0
100
AcDbLine
 10
0.0
 20
0.0
 30
0.0
 11
0.0
 21
-2.5
 31
0.0
  0
LINE
  5
B5
330
AF
100
AcDbEntity
  8
FORMAT
 62
     0
100
AcDbLine
 10
0.0
 20
0.0
 30
0.0
 11
2.5
 21
0.0
 31
0.0
  0
LINE
  5
B6
330
AF
100
AcDbEntity
  8
FORMAT
 62
     0
100
AcDbLine
 10
0.0
 20
5.0
 30
0.0
 11
0.0
 21
12.5
 31
0.0
  0
LINE
  5
B7
330
AF
100
AcDbEntity
  8
FORMAT
 62
     0
100
AcDbLine
 10
-5.0
 20
0.0
 30
0.0
 11
-12.5
 21
0.0
 31
0.0
  0
LINE
  5
B8
330
AF
100
AcDbEntity
  8
FORMAT
 62
     0
100
AcDbLine
 10
0.0
 20
-5.0
 30
0.0
 11
0.0
 21
-12.5
 31
0.0
  0
LINE
  5
B9
330
AF
100
AcDbEntity
  8
FORMAT
 62
     0
100
AcDbLine
 10
5.0
 20
0.0
 30
0.0
 11
12.5
 21
0.0
 31
0.0
  0
ENDBLK
  5
B1
330
AF
100
AcDbEntity
  8
0
100
AcDbBlockEnd
  0
BLOCK
  5
C4
330
C3
100
AcDbEntity
  8
0
100
AcDbBlockBegin
  2
SW_CENTERMARKSYMBOL_1
 70
     0
 10
0.0
 20
0.0
 30
0.0
  3
SW_CENTERMARKSYMBOL_1
  1

  0
LINE
  5
C6
330
C3
100
AcDbEntity
  8
FORMAT
 62
     0
100
AcDbLine
 10
0.0
 20
0.0
 30
0.0
 11
0.0
 21
2.5
 31
0.0
  0
LINE
  5
C7
330
C3
100
AcDbEntity
  8
FORMAT
 62
     0
100
AcDbLine
 10
0.0
 20
0.0
 30
0.0
 11
-2.5
 21
0.0
 31
0.0
  0
LINE
  5
C8
330
C3
100
AcDbEntity
  8
FORMAT
 62
     0
100
AcDbLine
 10
0.0
 20
0.0
 30
0.0
 11
0.0
 21
-2.5
 31
0.0
  0
LINE
  5
C9
330
C3
100
AcDbEntity
  8
FORMAT
 62
     0
100
AcDbLine
 10
0.0
 20
0.0
 30
0.0
 11
2.5
 21
0.0
 31
0.0
  0
LINE
  5
CA
330
C3
100
AcDbEntity
  8
FORMAT
 62
     0
100
AcDbLine
 10
0.0
 20
5.0
 30
0.0
 11
0.0
 21
12.5
 31
0.0
  0
LINE
  5
CB
330
C3
100
AcDbEntity
  8
FORMAT
 62
     0
100
AcDbLine
 10
-5.0
 20
0.0
 30
0.0
 11
-12.5
 21
0.0
 31
0.0
  0
LINE
  5
CC
330
C3
100
AcDbEntity
  8
FORMAT
 62
     0
100
AcDbLine
 10
0.0
 20
-5.0
 30
0.0
 11
0.0
 21
-12.5
 31
0.0
  0
LINE
  5
CD
330
C3
100
AcDbEntity
  8
FORMAT
 62
     0
100
AcDbLine
 10
5.0
 20
0.0
 30
0.0
 11
12.5
 21
0.0
 31
0.0
  0
ENDBLK
  5
C5
330
C3
100
AcDbEntity
  8
0
100
AcDbBlockEnd
  0
ENDSEC
  0
SECTION
  2
ENTITIES
  0
LINE
  5
83
330
1F
100
AcDbEntity
  8
0
  6
Continuous
 62
     7
370
    25
100
AcDbLine
 10
114.0684009527
 20
105.1232721391
 30
0.0
 11
114.0684009527
 21
39.2654072228
 31
0.0
  0
LINE
  5
84
330
1F
100
AcDbEntity
  8
0
  6
Continuous
 62
     7
370
    25
100
AcDbLine
 10
134.0684005057
 20
39.2654072228
 30
0.0
 11
134.0684005057
 21
105.1232721391
 31
0.0
  0
ARC
  5
85
330
1F
100
AcDbEntity
  8
0
  6
Continuous
 62
     7
370
    25
100
AcDbCircle
 10
134.0684007292
 20
105.1232715991
 30
0.0
 40
19.99999999999999
100
AcDbArc
 50
135.0
 51
180.0
  0
LINE
  5
86
330
1F
100
AcDbEntity
  8
0
  6
Continuous
 62
     7
370
    25
100
AcDbLine
 10
165.9973327999
 20
165.3364728871
 30
0.0
 11
119.9262648818
 21
119.2654054346
 31
0.0
  0
LINE
  5
87
330
1F
100
AcDbEntity
  8
0
  6
Continuous
 62
     7
370
    25
100
AcDbLine
 10
134.0684005057
 20
105.1232721391
 30
0.0
 11
180.1394698208
 21
151.1943395915
 31
0.0
  0
LINE
  5
88
330
1F
100
AcDbEntity
  8
0
  6
Continuous
 62
     7
370
    25
100
AcDbLine
 10
124.0684007292
 20
39.2654072228
 30
0.0
 11
134.0684005057
 21
39.2654072228
 31
0.0
  0
LINE
  5
89
330
1F
100
AcDbEntity
  8
0
  6
Continuous
 62
     7
370
    25
100
AcDbLine
 10
114.0684009527
 20
39.2654072228
 30
0.0
 11
124.0684007292
 21
39.2654072228
 31
0.0
  0
LWPOLYLINE
  5
8A
330
1F
100
AcDbEntity
  8
0
  6
Continuous
 62
     7
370
    25
100
AcDbPolyline
 90
       17
 70
   128
 43
0.0
 10
173.0683994477
 20
158.2654099646
 10
173.7724532371
 20
157.5613599005
 10
174.469507206
 20
156.8643059316
 10
175.1526360398
 20
156.1811770978
 10
175.8150485342
 20
155.5187608781
 10
176.4501658266
 20
154.8836435857
 10
177.0516735499
 20
154.2821358624
 10
177.6135963385
 20
153.7202130738
 10
178.1303425317
 20
153.2034631553
 10
178.5967824047
 20
152.7370270076
 10
179.0082816963
 20
152.3255239907
 10
179.3607463126
 20
151.9730668249
 10
179.6506707554
 20
151.6831349316
 10
179.8751828258
 20
151.4586265865
 10
180.0320436244
 20
151.3017620626
 10
180.1196959799
 20
151.2141134324
 10
180.1394698208
 20
151.1943395915
  0
LWPOLYLINE
  5
8B
330
1F
100
AcDbEntity
  8
0
  6
Continuous
 62
     7
370
    25
100
AcDbPolyline
 90
       17
 70
   128
 43
0.0
 10
165.9973327999
 20
165.3364728871
 10
166.0171066408
 20
165.3166990462
 10
166.1047589963
 20
165.229050416
 10
166.2616197949
 20
165.0721858921
 10
166.48612814
 20
164.8476849976
 10
166.7760563081
 20
164.5577531042
 10
167.1285209244
 20
164.2052884879
 10
167.5400164907
 20
163.7937929216
 10
168.0064563637
 20
163.3273493233
 10
168.5232062822
 20
162.8105994048
 10
169.0851253455
 20
162.2486840668
 10
169.6866330688
 20
161.6471763435
 10
170.3217503612
 20
161.0120590511
 10
170.9841665809
 20
160.3496428314
 10
171.6672954147
 20
159.6665139976
 10
172.3643493836
 20
158.9694600287
 10
173.0683994477
 20
158.2654099646
  0
LINE
  5
8C
330
1F
100
AcDbEntity
  8
0
  6
Continuous
 62
     1
370
    25
100
AcDbLine
 10
114.0684009527
 20
105.1232721391
 30
0.0
 11
134.0684005057
 21
105.1232721391
 31
0.0
  0
LWPOLYLINE
  5
8D
330
1F
100
AcDbEntity
  8
0
  6
Continuous
 62
     1
370
    25
100
AcDbPolyline
 90
       34
 70
   128
 43
0.0
 10
119.9262648818
 20
119.2654054346
 10
119.93505517
 20
119.2566137495
 10
120.0052428988
 20
119.1864292803
 10
120.1449217272
 20
119.0467532459
 10
120.3527025876
 20
118.8389714542
 10
120.6265209706
 20
118.5651477161
 10
120.9636553188
 20
118.2280163947
 10
121.3607549665
 20
117.83091535
 10
121.8138734342
 20
117.3778008404
 10
122.3185075444
 20
116.873165566
 10
122.8696417759
 20
116.3220312181
 10
123.4617990206
 20
115.7298739734
 10
124.0890939201
 20
115.1025797906
 10
124.7452922047
 20
114.4463773551
 10
125.4238722843
 20
113.7678008261
 10
126.1180901432
 20
113.0735855284
 10
126.8210463689
 20
112.3706232491
 10
127.5257544124
 20
111.6659175339
 10
128.2252109607
 20
110.9664644781
 10
128.9124641565
 20
110.2792080226
 10
129.5806839128
 20
109.6109878006
 10
130.2232294341
 20
108.9684422794
 10
130.8337141757
 20
108.3579566064
 10
131.4060715025
 20
107.785603005
 10
131.934612896
 20
107.2570588174
 10
132.4140847658
 20
106.7775841537
 10
132.8397233968
 20
106.3519473853
 10
133.2072968592
 20
105.9843729916
 10
133.5131534373
 20
105.6785192075
 10
133.7542532941
 20
105.4374184194
 10
133.9281992053
 20
105.2634697142
 10
134.0332626363
 20
105.1584090772
 10
134.0684005057
 20
105.1232721391
 10
134.0684005057
 20
105.1232721391
  0
LINE
  5
8E
330
1F
100
AcDbEntity
  8
0
  6
Continuous
 62
     7
370
    25
100
AcDbLine
 10
45.2182720054
 20
158.2654099646
 30
0.0
 11
45.2182720054
 21
112.1943425122
 31
0.0
  0
LINE
  5
8F
330
1F
100
AcDbEntity
  8
0
  6
Continuous
 62
     7
370
    25
100
AcDbLine
 10
65.2182715584
 20
112.1943425122
 30
0.0
 11
65.2182715584
 21
158.2654099646
 31
0.0
  0
LINE
  5
90
330
1F
100
AcDbEntity
  8
0
  6
Continuous
 62
     7
370
    25
100
AcDbLine
 10
45.2182720054
 20
112.1943425122
 30
0.0
 11
45.2182720054
 21
105.1232721391
 31
0.0
  0
LINE
  5
91
330
1F
100
AcDbEntity
  8
0
  6
Continuous
 62
     7
370
    25
100
AcDbLine
 10
65.2182715584
 20
105.1232721391
 30
0.0
 11
65.2182715584
 21
112.1943425122
 31
0.0
  0
LINE
  5
92
330
1F
100
AcDbEntity
  8
0
  6
Continuous
 62
     7
370
    25
100
AcDbLine
 10
45.2182720054
 20
105.1232721391
 30
0.0
 11
45.2182720054
 21
39.2654072228
 31
0.0
  0
LINE
  5
93
330
1F
100
AcDbEntity
  8
0
  6
Continuous
 62
     7
370
    25
100
AcDbLine
 10
65.2182715584
 20
39.2654072228
 30
0.0
 11
65.2182715584
 21
105.1232721391
 31
0.0
  0
LWPOLYLINE
  5
94
330
1F
100
AcDbEntity
  8
0
  6
Continuous
 62
     7
370
    25
100
AcDbPolyline
 90
       64
 70
   128
 43
0.0
 10
45.2182720054
 20
158.2654099646
 10
45.2679636527
 20
157.5613599005
 10
45.4165468562
 20
156.8643059316
 10
45.6625436071
 20
156.1811770978
 10
46.0035101149
 20
155.5187608781
 10
46.4360563654
 20
154.8836435857
 10
46.955884305
 20
154.2821358624
 10
47.5578274217
 20
153.7202130738
 10
48.2359038305
 20
153.2034631553
 10
48.98337355
 20
152.7370270076
 10
49.7928092826
 20
152.3255239907
 10
50.6561653327
 20
151.9730668249
 10
51.5648614254
 20
151.6831349316
 10
52.5098669913
 20
151.4586265865
 10
53.4817899914
 20
151.3017620626
 10
54.4709708646
 20
151.2141134324
 10
55.467578686
 20
151.1965375128
 10
56.4617088402
 20
151.2492131176
 10
57.4434810422
 20
151.3716261568
 10
58.4031381749
 20
151.5625472846
 10
59.33114268
 20
151.8200840536
 10
60.2182716701
 20
152.1416809144
 10
61.0557085473
 20
152.5241415682
 10
61.8351300817
 20
152.9636513176
 10
62.5487904634
 20
153.4558590236
 10
63.1895967398
 20
153.9958622041
 10
63.751180527
 20
154.5783038917
 10
64.2279608745
 20
155.1973875347
 10
64.6151982818
 20
155.8469589534
 10
64.9090445239
 20
156.5205659452
 10
65.1065799046
 20
157.2115178886
 10
65.205841196
 20
157.9129453483
 10
65.205841196
 20
158.6178745809
 10
65.1065799046
 20
159.31929459
 10
64.9090445239
 20
160.0102465334
 10
64.6151982818
 20
160.6838535252
 10
64.2279608745
 20
161.333424944
 10
63.751180527
 20
161.9525085869
 10
63.1895967398
 20
162.5349502745
 10
62.5487904634
 20
163.074953455
 10
61.8351300817
 20
163.567161161
 10
61.0557085473
 20
164.006678361
 10
60.2182716701
 20
164.3891315642
 10
59.33114268
 20
164.7107284251
 10
58.4031381749
 20
164.968265194
 10
57.4434810422
 20
165.1591937724
 10
56.4617088402
 20
165.2815919104
 10
55.467578686
 20
165.3342824164
 10
54.4709708646
 20
165.3166990462
 10
53.4817899914
 20
165.229050416
 10
52.5098669913
 20
165.0721858921
 10
51.5648614254
 20
164.8476849976
 10
50.6561653327
 20
164.5577531042
 10
49.7928092826
 20
164.2052884879
 10
48.98337355
 20
163.7937929216
 10
48.2359038305
 20
163.3273493233
 10
47.5578274217
 20
162.8105994048
 10
46.955884305
 20
162.2486840668
 10
46.4360563654
 20
161.6471763435
 10
46.0035101149
 20
161.0120590511
 10
45.6625436071
 20
160.3496428314
 10
45.4165468562
 20
159.6665139976
 10
45.2679636527
 20
158.9694600287
 10
45.2182720054
 20
158.2654099646
  0
LWPOLYLINE
  5
95
330
1F
100
AcDbEntity
  8
0
  6
Continuous
 62
     7
370
    25
100
AcDbPolyline
 90
       54
 70
   128
 43
0.0
 10
48.2182715658
 20
158.2654099646
 10
48.2674039539
 20
158.8508318844
 10
48.4141114738
 20
159.4280358138
 10
48.6563340399
 20
159.9889155212
 10
48.990672325
 20
160.5256031933
 10
49.4124319974
 20
161.0305662933
 10
49.9156931054
 20
161.4967118683
 10
50.4933906358
 20
161.9174983087
 10
51.1374155629
 20
162.2870098534
 10
51.8387263745
 20
162.6000757995
 10
52.587478758
 20
162.8522854033
 10
53.3731615741
 20
163.0401070896
 10
54.1847458679
 20
163.1609033528
 10
55.010838494
 20
163.2129829111
 10
55.8398430456
 20
163.1956007066
 10
56.6601221088
 20
163.1090175095
 10
57.4601607967
 20
162.9544328633
 10
58.2287282322
 20
162.7340297881
 10
58.9550355088
 20
162.4508928242
 10
59.6288865071
 20
162.1090005818
 10
60.2408227149
 20
161.7131586852
 10
60.7822526816
 20
161.2689178172
 10
61.2455772806
 20
160.7825066629
 10
61.6242912237
 20
160.2607648554
 10
61.9130785216
 20
159.7110163155
 10
62.1078860585
 20
159.140972394
 10
62.2059780743
 20
158.5586350146
 10
62.2059780743
 20
157.972177464
 10
62.1078860585
 20
157.3898475352
 10
61.9130785216
 20
156.8198036137
 10
61.6242912237
 20
156.2700476232
 10
61.2455772806
 20
155.7483058157
 10
60.7822526816
 20
155.261902112
 10
60.2408227149
 20
154.8176537934
 10
59.6288865071
 20
154.4218118968
 10
58.9550355088
 20
154.0799196544
 10
58.2287282322
 20
153.7967826906
 10
57.4601607967
 20
153.5763796153
 10
56.6601221088
 20
153.4218024197
 10
55.8398430456
 20
153.335211772
 10
55.010838494
 20
153.317837018
 10
54.1847458679
 20
153.3699091258
 10
53.3731615741
 20
153.4907053891
 10
52.587478758
 20
153.6785270753
 10
51.8387263745
 20
153.9307441297
 10
51.1374155629
 20
154.2438026252
 10
50.4933906358
 20
154.6133216205
 10
49.9156931054
 20
155.0341006103
 10
49.4124319974
 20
155.5002461853
 10
48.990672325
 20
156.0052092853
 10
48.6563340399
 20
156.5418969574
 10
48.4141114738
 20
157.1027841153
 10
48.2674039539
 20
157.6799880448
 10
48.2182715658
 20
158.2654099646
  0
LINE
  5
96
330
1F
100
AcDbEntity
  8
0
  6
Continuous
 62
     7
370
    25
100
AcDbLine
 10
45.2182720054
 20
39.2654072228
 30
0.0
 11
65.2182715584
 21
39.2654072228
 31
0.0
  0
LWPOLYLINE
  5
97
330
1F
100
AcDbEntity
  8
0
  6
Continuous
 62
     1
370
    25
100
AcDbPolyline
 90
       17
 70
   128
 43
0.0
 10
55.2182717819
 20
105.1232721391
 10
56.2139502598
 20
105.1584090772
 10
57.1997332025
 20
105.2634697142
 10
58.1658234458
 20
105.4374184194
 10
59.1026196361
 20
105.6785192075
 10
60.0008115742
 20
105.9843729916
 10
60.8514723007
 20
106.3519473853
 10
61.6461479675
 20
106.7775841537
 10
62.3769404937
 20
107.2570588174
 10
63.03658696
 20
107.785603005
 10
63.6185313214
 20
108.3579566064
 10
64.1169900645
 20
108.9684422794
 10
64.5270094845
 20
109.6109878006
 10
64.844514114
 20
110.2792080226
 10
65.0663495634
 20
110.9664644781
 10
65.1903095294
 20
111.6659175339
 10
65.2182715584
 20
112.1943425122
  0
LWPOLYLINE
  5
98
330
1F
100
AcDbEntity
  8
0
  6
Continuous
 62
     1
370
    25
100
AcDbPolyline
 90
       17
 70
   128
 43
0.0
 10
45.2182720054
 20
112.1943425122
 10
45.2462340344
 20
111.6659175339
 10
45.3701940004
 20
110.9664644781
 10
45.5920294497
 20
110.2792080226
 10
45.9095340792
 20
109.6109878006
 10
46.3195534993
 20
108.9684422794
 10
46.8180122424
 20
108.3579566064
 10
47.3999566037
 20
107.785603005
 10
48.0596030701
 20
107.2570588174
 10
48.7903955963
 20
106.7775841537
 10
49.5850712631
 20
106.3519473853
 10
50.4357319895
 20
105.9843729916
 10
51.3339239277
 20
105.6785192075
 10
52.2707201179
 20
105.4374184194
 10
53.2368103612
 20
105.2634697142
 10
54.222593304
 20
105.1584090772
 10
55.2182717819
 20
105.1232721391
  0
LINE
  5
99
330
1F
100
AcDbEntity
  8
0
  6
Continuous
 62
     1
370
    25
100
AcDbLine
 10
55.2182717819
 20
105.1232721391
 30
0.0
 11
65.2182715584
 21
105.1232721391
 31
0.0
  0
LINE
  5
9A
330
1F
100
AcDbEntity
  8
0
  6
Continuous
 62
     1
370
    25
100
AcDbLine
 10
45.2182720054
 20
105.1232721391
 30
0.0
 11
55.2182717819
 21
105.1232721391
 31
0.0
  0
LINE
  5
9B
330
1F
100
AcDbEntity
  8
0
  6
Continuous
 62
     7
370
    25
100
AcDbLine
 10
208.5231576178
 20
105.1232721391
 30
0.0
 11
208.5231576178
 21
39.2654072228
 31
0.0
  0
LINE
  5
9C
330
1F
100
AcDbEntity
  8
0
  6
Continuous
 62
     7
370
    25
100
AcDbLine
 10
228.5231571707
 20
39.2654072228
 30
0.0
 11
228.5231571707
 21
105.1232721391
 31
0.0
  0
LINE
  5
9D
330
1F
100
AcDbEntity
  8
0
  6
Continuous
 62
     7
370
    25
100
AcDbLine
 10
228.5231571707
 20
105.1232721391
 30
0.0
 11
228.5231571707
 21
112.1943425122
 31
0.0
  0
LINE
  5
9E
330
1F
100
AcDbEntity
  8
0
  6
Continuous
 62
     7
370
    25
100
AcDbLine
 10
208.5231576178
 20
112.1943425122
 30
0.0
 11
208.5231576178
 21
105.1232721391
 31
0.0
  0
LINE
  5
9F
330
1F
100
AcDbEntity
  8
0
  6
Continuous
 62
     7
370
    25
100
AcDbLine
 10
208.5231576178
 20
158.2654099646
 30
0.0
 11
208.5231576178
 21
112.1943425122
 31
0.0
  0
LINE
  5
A0
330
1F
100
AcDbEntity
  8
0
  6
Continuous
 62
     7
370
    25
100
AcDbLine
 10
228.5231571707
 20
112.1943425122
 30
0.0
 11
228.5231571707
 21
158.2654099646
 31
0.0
  0
LINE
  5
A1
330
1F
100
AcDbEntity
  8
0
  6
Continuous
 62
     7
370
    25
100
AcDbLine
 10
208.5231576178
 20
39.2654072228
 30
0.0
 11
228.5231571707
 21
39.2654072228
 31
0.0
  0
LWPOLYLINE
  5
A2
330
1F
100
AcDbEntity
  8
0
  6
Continuous
 62
     7
370
    25
100
AcDbPolyline
 90
       34
 70
   128
 43
0.0
 10
208.5231576178
 20
158.2654099646
 10
208.5355879802
 20
158.6178745809
 10
208.6348492715
 20
159.31929459
 10
208.8323846522
 20
160.0102465334
 10
209.1262308944
 20
160.6838535252
 10
209.5134683016
 20
161.333424944
 10
209.9902486492
 20
161.9525085869
 10
210.5518324364
 20
162.5349502745
 10
211.1926387127
 20
163.074953455
 10
211.9062990944
 20
163.567161161
 10
212.6857206288
 20
164.006678361
 10
213.523157506
 20
164.3891315642
 10
214.4102864962
 20
164.7107284251
 10
215.3382910013
 20
164.968265194
 10
216.2979481339
 20
165.1591937724
 10
217.279720336
 20
165.2815919104
 10
218.2738504901
 20
165.3342824164
 10
219.2704583115
 20
165.3166990462
 10
220.2596391847
 20
165.229050416
 10
221.2315621849
 20
165.0721858921
 10
222.1765677508
 20
164.8476849976
 10
223.0852638434
 20
164.5577531042
 10
223.9486198935
 20
164.2052884879
 10
224.7580556262
 20
163.7937929216
 10
225.5055253457
 20
163.3273493233
 10
226.1836017545
 20
162.8105994048
 10
226.7855448711
 20
162.2486840668
 10
227.3053728107
 20
161.6471763435
 10
227.7379190612
 20
161.0120590511
 10
228.078885569
 20
160.3496428314
 10
228.3248823199
 20
159.6665139976
 10
228.4734655235
 20
158.9694600287
 10
228.5231571707
 20
158.2654099646
 10
228.5231571707
 20
158.2654099646
  0
LINE
  5
A3
330
1F
100
AcDbEntity
  8
0
  6
Continuous
 62
     1
370
    25
100
AcDbLine
 10
208.5231576178
 20
105.1232721391
 30
0.0
 11
228.5231571707
 21
105.1232721391
 31
0.0
  0
LWPOLYLINE
  5
A4
330
1F
100
AcDbEntity
  8
0
  6
Continuous
 62
     1
370
    25
100
AcDbPolyline
 90
       34
 70
   128
 43
0.0
 10
208.5231576178
 20
112.1943425122
 10
208.5262654412
 20
112.3706232491
 10
208.6007656592
 20
113.0735855284
 10
208.7738780368
 20
113.7678008261
 10
209.0438842836
 20
114.4463773551
 10
209.4080984655
 20
115.1025797906
 10
209.8629033256
 20
115.7298739734
 10
210.4037772927
 20
116.3220312181
 10
211.0253452386
 20
116.873165566
 10
211.7214301664
 20
117.3778008404
 10
212.4851132806
 20
117.83091535
 10
213.3088052336
 20
118.2280163947
 10
214.1843201655
 20
118.5651477161
 10
215.1029560312
 20
118.8389714542
 10
216.0555833082
 20
119.0467532459
 10
217.0327347533
 20
119.1864292803
 10
218.0246985348
 20
119.2566137495
 10
219.0216162538
 20
119.2566137495
 10
220.0135800352
 20
119.1864292803
 10
220.9907314803
 20
119.0467532459
 10
221.9433587573
 20
118.8389714542
 10
222.861994623
 20
118.5651477161
 10
223.737509555
 20
118.2280163947
 10
224.5612015079
 20
117.83091535
 10
225.3248846221
 20
117.3778008404
 10
226.0209695499
 20
116.873165566
 10
226.6425374958
 20
116.3220312181
 10
227.1834114629
 20
115.7298739734
 10
227.638216323
 20
115.1025797906
 10
228.0024305049
 20
114.4463773551
 10
228.2724367518
 20
113.7678008261
 10
228.4455491293
 20
113.0735855284
 10
228.5200493473
 20
112.3706232491
 10
228.5231571707
 20
112.1943425122
  0
LINE
  5
A5
330
1F
100
AcDbEntity
  8
0
  6
Continuous
 62
     7
370
    25
100
AcDbLine
 10
173.0683994477
 20
213.8778173478
 30
0.0
 11
126.9973329266
 21
213.8778173478
 31
0.0
  0
LINE
  5
A6
330
1F
100
AcDbEntity
  8
0
  6
Continuous
 62
     7
370
    25
100
AcDbLine
 10
126.9973329266
 20
193.8778177949
 30
0.0
 11
173.0683994477
 21
193.8778177949
 31
0.0
  0
LINE
  5
A7
330
1F
100
AcDbEntity
  8
0
  6
Continuous
 62
     7
370
    25
100
AcDbLine
 10
126.9973329266
 20
213.8778173478
 30
0.0
 11
124.0684007292
 21
213.8778173478
 31
0.0
  0
LINE
  5
A8
330
1F
100
AcDbEntity
  8
0
  6
Continuous
 62
     7
370
    25
100
AcDbLine
 10
124.0684007292
 20
193.8778177949
 30
0.0
 11
126.9973329266
 21
193.8778177949
 31
0.0
  0
CIRCLE
  5
A9
330
1F
100
AcDbEntity
  8
0
  6
Continuous
 62
     7
370
    25
100
AcDbCircle
 10
124.0684007292
 20
203.8778175713
 30
0.0
 40
7.0
  0
CIRCLE
  5
AA
330
1F
100
AcDbEntity
  8
0
  6
Continuous
 62
     7
370
    25
100
AcDbCircle
 10
124.0684007292
 20
203.8778175713
 30
0.0
 40
10.0
  0
LWPOLYLINE
  5
AB
330
1F
100
AcDbEntity
  8
0
  6
Continuous
 62
     7
370
    25
100
AcDbPolyline
 90
       33
 70
   128
 43
0.0
 10
173.0683994477
 20
213.8778173478
 10
173.7724532371
 20
213.8281257005
 10
174.469507206
 20
213.679542497
 10
175.1526360398
 20
213.4335457461
 10
175.8150485342
 20
213.0925792383
 10
176.4501658266
 20
212.6600329878
 10
177.0516735499
 20
212.1402050482
 10
177.6135963385
 20
211.5382619316
 10
178.1303425317
 20
210.8601855228
 10
178.5967824047
 20
210.1127158033
 10
179.0082816963
 20
209.3032800706
 10
179.3607463126
 20
208.4399240205
 10
179.6506707554
 20
207.5312279278
 10
179.8751828258
 20
206.586222362
 10
180.0320436244
 20
205.6142993618
 10
180.1196959799
 20
204.6251184886
 10
180.1372718995
 20
203.6285106672
 10
180.0845925694
 20
202.634380513
 10
179.9621832555
 20
201.652608311
 10
179.7712584024
 20
200.6929511784
 10
179.5137216335
 20
199.7649466732
 10
179.1921247726
 20
198.8778176831
 10
178.8096678441
 20
198.0403808059
 10
178.3701543694
 20
197.2609592715
 10
177.8779466634
 20
196.5472988898
 10
177.3379434829
 20
195.9064926134
 10
176.7555055206
 20
195.3449088262
 10
176.1364218776
 20
194.8681284787
 10
175.4868467336
 20
194.4808910714
 10
174.8132397418
 20
194.1870448293
 10
174.1222877984
 20
193.9895094486
 10
173.420864064
 20
193.8902481573
 10
173.0683994477
 20
193.8778177949
  0
LWPOLYLINE
  5
AC
330
1F
100
AcDbEntity
  8
0
  6
Continuous
 62
     1
370
    25
100
AcDbPolyline
 90
       17
 70
   128
 43
0.0
 10
134.0684005057
 20
203.8778175713
 10
134.0332626363
 20
202.8821390934
 10
133.9281992053
 20
201.8963561507
 10
133.7542532941
 20
200.9302659074
 10
133.5131534373
 20
199.9934697172
 10
133.2072968592
 20
199.095277779
 10
132.8397233968
 20
198.2446170526
 10
132.4140847658
 20
197.4499413857
 10
131.934612896
 20
196.7191488596
 10
131.4060715025
 20
196.0595023932
 10
130.8337141757
 20
195.4775580319
 10
130.2232294341
 20
194.9790992888
 10
129.5806839128
 20
194.5690798687
 10
128.9124641565
 20
194.2515752392
 10
128.2252109607
 20
194.0297397898
 10
127.5257544124
 20
193.9057798238
 10
126.9973329266
 20
193.8778177949
  0
LWPOLYLINE
  5
AD
330
1F
100
AcDbEntity
  8
0
  6
Continuous
 62
     1
370
    25
100
AcDbPolyline
 90
       17
 70
   128
 43
0.0
 10
126.9973329266
 20
213.8778173478
 10
127.5257544124
 20
213.8498553188
 10
128.2252109607
 20
213.7258953528
 10
128.9124641565
 20
213.5040599035
 10
129.5806839128
 20
213.186555274
 10
130.2232294341
 20
212.7765358539
 10
130.8337141757
 20
212.2780771108
 10
131.4060715025
 20
211.6961327495
 10
131.934612896
 20
211.0364862831
 10
132.4140847658
 20
210.305693757
 10
132.8397233968
 20
209.5110180901
 10
133.2072968592
 20
208.6603573637
 10
133.5131534373
 20
207.7621654255
 10
133.7542532941
 20
206.8253692353
 10
133.9281992053
 20
205.859278992
 10
134.0332626363
 20
204.8734960493
 10
134.0684005057
 20
203.8778175713
  0
LWPOLYLINE
  5
AE
330
1F
100
AcDbEntity
  8
0
  6
Continuous
 62
     1
370
    25
100
AcDbPolyline
 90
       24
 70
   128
 43
0.0
 10
125.7841295095
 20
210.6642948577
 10
125.2738227134
 20
210.4397553133
 10
124.7371335279
 20
210.1054170282
 10
124.2321725088
 20
209.6836573558
 10
123.7660282871
 20
209.1803962478
 10
123.3452445243
 20
208.6026987174
 10
122.9757280319
 20
207.9586737903
 10
122.6626661604
 20
207.2573629787
 10
122.4104534134
 20
206.5086105952
 10
122.2226303301
 20
205.7229277791
 10
122.1018337177
 20
204.9113434853
 10
122.0497592816
 20
204.0852508592
 10
122.0671377608
 20
203.2562463076
 10
122.1537253817
 20
202.4359672444
 10
122.3083066519
 20
201.6359285565
 10
122.5287115897
 20
200.8673611211
 10
122.8118462253
 20
200.1410538444
 10
123.1537359066
 20
199.4672028461
 10
123.5495812374
 20
198.8552666383
 10
123.9938254306
 20
198.3138366716
 10
124.4802322993
 20
197.8505120726
 10
125.0019737284
 20
197.4717981296
 10
125.5517256444
 20
197.1830108317
 10
125.7841295095
 20
197.091340285
  0
INSERT
  5
BA
330
1F
100
AcDbEntity
  8
FORMAT
 62
     7
100
AcDbBlockReference
  2
SW_CENTERMARKSYMBOL_0
 10
124.0684007292
 20
203.8778175713
 30
0.0
  0
LINE
  5
BB
330
1F
100
AcDbEntity
  8
0
  6
Continuous
 62
     7
370
    25
100
AcDbLine
 10
173.0683994477
 20
-14.133948673
 30
0.0
 11
126.9973329266
 21
-14.133948673
 31
0.0
  0
LINE
  5
BC
330
1F
100
AcDbEntity
  8
0
  6
Continuous
 62
     7
370
    25
100
AcDbLine
 10
126.9973329266
 20
-34.1339482259
 30
0.0
 11
173.0683994477
 21
-34.1339482259
 31
0.0
  0
LINE
  5
BD
330
1F
100
AcDbEntity
  8
0
  6
Continuous
 62
     7
370
    25
100
AcDbLine
 10
124.0684007292
 20
-34.1339482259
 30
0.0
 11
126.9973329266
 21
-34.1339482259
 31
0.0
  0
LINE
  5
BE
330
1F
100
AcDbEntity
  8
0
  6
Continuous
 62
     7
370
    25
100
AcDbLine
 10
126.9973329266
 20
-14.133948673
 30
0.0
 11
124.0684007292
 21
-14.133948673
 31
0.0
  0
LWPOLYLINE
  5
BF
330
1F
100
AcDbEntity
  8
0
  6
Continuous
 62
     7
370
    25
100
AcDbPolyline
 90
       64
 70
   128
 43
0.0
 10
173.0683994477
 20
-34.1339482259
 10
173.7724532371
 20
-34.0842565787
 10
174.469507206
 20
-33.9356733751
 10
175.1526360398
 20
-33.6896766242
 10
175.8150485342
 20
-33.3487101164
 10
176.4501658266
 20
-32.9161638659
 10
177.0516735499
 20
-32.3963359263
 10
177.6135963385
 20
-31.7943928097
 10
178.1303425317
 20
-31.1163164009
 10
178.5967824047
 20
-30.3688466814
 10
179.0082816963
 20
-29.5594109487
 10
179.3607463126
 20
-28.6960548986
 10
179.6506707554
 20
-27.787358806
 10
179.8751828258
 20
-26.8423532401
 10
180.0320436244
 20
-25.8704302399
 10
180.1196959799
 20
-24.8812493667
 10
180.1372718995
 20
-23.8846415453
 10
180.0845925694
 20
-22.8905113912
 10
179.9621832555
 20
-21.9087391891
 10
179.7712584024
 20
-20.9490820565
 10
179.5137216335
 20
-20.0210775514
 10
179.1921247726
 20
-19.1339485612
 10
178.8096678441
 20
-18.296511684
 10
178.3701543694
 20
-17.5170901496
 10
177.8779466634
 20
-16.8034297679
 10
177.3379434829
 20
-16.1626234916
 10
176.7555055206
 20
-15.6010397044
 10
176.1364218776
 20
-15.1242593568
 10
175.4868467336
 20
-14.7370219496
 10
174.8132397418
 20
-14.4431757074
 10
174.1222877984
 20
-14.2456403267
 10
173.420864064
 20
-14.1463790354
 10
172.7159385567
 20
-14.1463790354
 10
172.014511097
 20
-14.2456403267
 10
171.3235628789
 20
-14.4431757074
 10
170.6499521618
 20
-14.7370219496
 10
170.000380743
 20
-15.1242593568
 10
169.3812971001
 20
-15.6010397044
 10
168.7988591378
 20
-16.1626234916
 10
168.258852232
 20
-16.8034297679
 10
167.7666482513
 20
-17.5170901496
 10
167.3271310513
 20
-18.296511684
 10
166.9446778481
 20
-19.1339485612
 10
166.6230809872
 20
-20.0210775514
 10
166.365540493
 20
-20.9490820565
 10
166.1746193652
 20
-21.9087391891
 10
166.0522100513
 20
-22.8905113912
 10
165.9995307212
 20
-23.8846415453
 10
166.0171066408
 20
-24.8812493667
 10
166.1047589963
 20
-25.8704302399
 10
166.2616197949
 20
-26.8423532401
 10
166.48612814
 20
-27.787358806
 10
166.7760563081
 20
-28.6960548986
 10
167.1285209244
 20
-29.5594109487
 10
167.5400164907
 20
-30.3688466814
 10
168.0064563637
 20
-31.1163164009
 10
168.5232062822
 20
-31.7943928097
 10
169.0851253455
 20
-32.3963359263
 10
169.6866330688
 20
-32.9161638659
 10
170.3217503612
 20
-33.3487101164
 10
170.9841665809
 20
-33.6896766242
 10
171.6672954147
 20
-33.9356733751
 10
172.3643493836
 20
-34.0842565787
 10
173.0683994477
 20
-34.1339482259
  0
LWPOLYLINE
  5
C0
330
1F
100
AcDbEntity
  8
0
  6
Continuous
 62
     7
370
    25
100
AcDbPolyline
 90
       54
 70
   128
 43
0.0
 10
173.0683994477
 20
-31.1339486655
 10
172.4829775279
 20
-31.0848162774
 10
171.9057735985
 20
-30.9381087576
 10
171.3448901658
 20
-30.6958861914
 10
170.8082024937
 20
-30.3615479064
 10
170.3032393937
 20
-29.9397882339
 10
169.837097544
 20
-29.436527126
 10
169.4163111036
 20
-28.8588295956
 10
169.0467958336
 20
-28.2148046684
 10
168.7337336128
 20
-27.5134938568
 10
168.4815202837
 20
-26.7647414733
 10
168.2936985975
 20
-25.9790586573
 10
168.1729023342
 20
-25.1674743634
 10
168.1208265012
 20
-24.3413817373
 10
168.1382049804
 20
-23.5123771857
 10
168.2247919028
 20
-22.6920981225
 10
168.3793728237
 20
-21.8920594346
 10
168.5997796242
 20
-21.1234919992
 10
168.8829128628
 20
-20.3971847225
 10
169.2248051052
 20
-19.7233337243
 10
169.6206507271
 20
-19.1113975164
 10
170.0648915951
 20
-18.5699675497
 10
170.5512990241
 20
-18.1066429507
 10
171.0730408316
 20
-17.7279290077
 10
171.6227930968
 20
-17.4391417098
 10
172.1928370183
 20
-17.2443341729
 10
172.7751743977
 20
-17.146242157
 10
173.361628223
 20
-17.146242157
 10
173.9439618771
 20
-17.2443341729
 10
174.5140095239
 20
-17.4391417098
 10
175.0637580638
 20
-17.7279290077
 10
175.5854998713
 20
-18.1066429507
 10
176.0719073003
 20
-18.5699675497
 10
176.5161518936
 20
-19.1113975164
 10
176.9119975155
 20
-19.7233337243
 10
177.2538860326
 20
-20.3971847225
 10
177.5370229964
 20
-21.1234919992
 10
177.7574260717
 20
-21.8920594346
 10
177.9120069926
 20
-22.6920981225
 10
177.9985976403
 20
-23.5123771857
 10
178.0159761195
 20
-24.3413817373
 10
177.9639002865
 20
-25.1674743634
 10
177.8431040232
 20
-25.9790586573
 10
177.6552786117
 20
-26.7647414733
 10
177.4030690079
 20
-27.5134938568
 10
177.0900067871
 20
-28.2148046684
 10
176.7204877918
 20
-28.8588295956
 10
176.2997050767
 20
-29.436527126
 10
175.8335595017
 20
-29.9397882339
 10
175.328600127
 20
-30.3615479064
 10
174.7919124549
 20
-30.6958861914
 10
174.2310290222
 20
-30.9381087576
 10
173.6538213675
 20
-31.0848162774
 10
173.0683994477
 20
-31.1339486655
  0
ARC
  5
C1
330
1F
100
AcDbEntity
  8
0
  6
Continuous
 62
     7
370
    25
100
AcDbCircle
 10
124.0684007292
 20
-24.1339484495
 30
0.0
 40
10.00000000000001
100
AcDbArc
 50
90.0
 51
270.0
  0
LWPOLYLINE
  5
C2
330
1F
100
AcDbEntity
  8
0
  6
Continuous
 62
     1
370
    25
100
AcDbPolyline
 90
       34
 70
   128
 43
0.0
 10
126.9973329266
 20
-14.133948673
 10
126.8210463689
 20
-14.1370564964
 10
126.1180901432
 20
-14.2115567144
 10
125.4238722843
 20
-14.384669092
 10
124.7452922047
 20
-14.6546753388
 10
124.0890939201
 20
-15.0188895207
 10
123.4617990206
 20
-15.4736943808
 10
122.8696417759
 20
-16.0145683479
 10
122.3185075444
 20
-16.6361362938
 10
121.8138734342
 20
-17.3322212216
 10
121.3607549665
 20
-18.0959043358
 10
120.9636553188
 20
-18.9195962888
 10
120.6265209706
 20
-19.7951112207
 10
120.3527025876
 20
-20.7137470864
 10
120.1449217272
 20
-21.6663743634
 10
120.0052428988
 20
-22.6435258085
 10
119.93505517
 20
-23.63548959
 10
119.93505517
 20
-24.632407309
 10
120.0052428988
 20
-25.6243710904
 10
120.1449217272
 20
-26.6015225355
 10
120.3527025876
 20
-27.5541498125
 10
120.6265209706
 20
-28.4727856782
 10
120.9636553188
 20
-29.3483006102
 10
121.3607549665
 20
-30.1719925631
 10
121.8138734342
 20
-30.9356756773
 10
122.3185075444
 20
-31.6317606051
 10
122.8696417759
 20
-32.253328551
 10
123.4617990206
 20
-32.7942025181
 10
124.0890939201
 20
-33.2490073782
 10
124.7452922047
 20
-33.6132215601
 10
125.4238722843
 20
-33.883227807
 10
126.1180901432
 20
-34.0563401845
 10
126.8210463689
 20
-34.1308404025
 10
126.9973329266
 20
-34.1339482259
  0
INSERT
  5
CE
330
1F
100
AcDbEntity
  8
FORMAT
 62
     7
100
AcDbBlockReference
  2
SW_CENTERMARKSYMBOL_1
 10
124.0684007292
 20
-24.1339484495
 30
0.0
  0
LINE
  5
CF
330
1F
100
AcDbEntity
  8
0
  6
Continuous
 62
     7
370
    25
100
AcDbLine
 10
219.5471394342
 20
-19.4305622271
 30
0.0
 11
219.5471394342
 21
-73.2061967149
 31
0.0
  0
LINE
  5
D0
330
1F
100
AcDbEntity
  8
0
  6
Continuous
 62
     7
370
    25
100
AcDbLine
 10
239.5471387758
 20
-73.2061967149
 30
0.0
 11
239.5471387758
 21
-19.4305622271
 31
0.0
  0
LINE
  5
D1
330
1F
100
AcDbEntity
  8
0
  6
Continuous
 62
     7
370
    25
100
AcDbLine
 10
255.5351177045
 20
48.9641596388
 30
0.0
 11
222.9579527515
 21
-7.4611442052
 31
0.0
  0
LINE
  5
D2
330
1F
100
AcDbEntity
  8
0
  6
Continuous
 62
     7
370
    25
100
AcDbLine
 10
240.278461013
 20
-17.4611472886
 30
0.0
 11
272.8556258837
 21
38.9641565079
 31
0.0
  0
SPLINE
  5
D3
330
1F
100
AcDbEntity
  8
0
  6
Continuous
 62
     7
370
    25
100
AcDbSpline
210
0.0
220
0.0
230
1.0
 70
     8
 71
     3
 72
    17
 73
    13
 74
     0
 42
0.000000001
 43
0.00000001
 40
0.0
 40
0.0
 40
0.0
 40
0.0
 40
0.0606204800672238
 40
0.165021557095722
 40
0.269774621754092
 40
0.37506158014632
 40
0.48106314937474
 40
0.5879195792911536
 40
0.6956992888978708
 40
0.8043559428411838
 40
0.9136840058984529
 40
1.0
 40
1.0
 40
1.0
 40
1.0
 10
222.9579527515206
 20
-7.461144205217836
 30
0.0
 10
222.8298345565453
 20
-7.68750601883195
 30
0.0
 10
222.4810701785057
 20
-8.303709963574466
 30
0.0
 10
221.9587623867926
 20
-9.33628024204711
 30
0.0
 10
221.4090746873136
 20
-10.56313361604712
 30
0.0
 10
220.9229317969465
 20
-11.81713114096658
 30
0.0
 10
220.5023499019021
 20
-13.09511899753734
 30
0.0
 10
220.1514098675333
 20
-14.39450282247012
 30
0.0
 10
219.873819707236
 20
-15.71181615825001
 30
0.0
 10
219.6763877489212
 20
-17.04216072955299
 30
0.0
 10
219.5653091148675
 20
-18.28460849615719
 30
0.0
 10
219.5527016904278
 20
-19.07975318503373
 30
0.0
 10
219.5471394342091
 20
-19.43056222708521
 30
0.0
  0
SPLINE
  5
D4
330
1F
100
AcDbEntity
  8
0
  6
Continuous
 62
     7
370
    25
100
AcDbSpline
210
0.0
220
0.0
230
1.0
 70
     8
 71
     3
 72
    16
 73
    12
 74
     0
 42
0.000000001
 43
0.00000001
 40
0.0
 40
0.0
 40
0.0
 40
0.0
 40
0.0819267390572789
 40
0.2096611429477815
 40
0.3328401003579435
 40
0.4540028721288016
 40
0.5750842841497095
 40
0.6972890511615761
 40
0.8209974414487854
 40
0.946385983847801
 40
0.9999999999999999
 40
0.9999999999999999
 40
0.9999999999999999
 40
0.9999999999999999
 10
239.5474496088301
 20
-19.43050192771342
 30
0.0
 10
239.5473678976345
 20
-19.43168154899396
 30
0.0
 10
239.5471587880951
 20
-19.43470035272967
 30
0.0
 10
239.5544831534155
 20
-19.35080935470361
 30
0.0
 10
239.5811981785246
 20
-19.19185966537992
 30
0.0
 10
239.6343067513528
 20
-18.96373362835199
 30
0.0
 10
239.7194734157474
 20
-18.67991786457575
 30
0.0
 10
239.8397136427924
 20
-18.35088512220776
 30
0.0
 10
239.9971580299044
 20
-17.99194030624897
 30
0.0
 10
240.1470271605395
 20
-17.68857160926121
 30
0.0
 10
240.2501431858441
 20
-17.51486423875137
 30
0.0
 10
240.2810280195079
 20
-17.4628362127631
 30
0.0
  0
LWPOLYLINE
  5
D5
330
1F
100
AcDbEntity
  8
0
  6
Continuous
 62
     7
370
    25
100
AcDbPolyline
 90
       64
 70
   128
 43
0.0
 10
222.4760714512
 20
-69.1241562471
 10
223.2152597556
 20
-68.7380005859
 10
224.01737775
 20
-68.3962522568
 10
224.874452683
 20
-68.1023071726
 10
225.7779673515
 20
-67.8590870796
 10
226.7189413487
 20
-67.6690086213
 10
227.688023178
 20
-67.5339613358
 10
228.6755817905
 20
-67.4552871271
 10
229.6718025682
 20
-67.4337681942
 10
230.6667839651
 20
-67.4696180023
 10
231.6506382648
 20
-67.5624809028
 10
232.6135867398
 20
-67.7114334635
 10
233.5460594213
 20
-67.9149953039
 10
234.4387889418
 20
-68.1711437312
 10
235.2829036365
 20
-68.4773325117
 10
236.0700130723
 20
-68.8305191953
 10
236.7922957983
 20
-69.2271929626
 10
237.4425723623
 20
-69.6634122148
 10
238.0143812079
 20
-70.1348407843
 10
238.5020380259
 20
-70.6367943632
 10
238.9006979866
 20
-71.1642832724
 10
239.2063973107
 20
-71.7120661128
 10
239.4160989554
 20
-72.2746981898
 10
239.5277182983
 20
-72.8465877779
 10
239.540146021
 20
-73.4220515311
 10
239.4532589757
 20
-73.9953697968
 10
239.2679205142
 20
-74.5608449725
 10
238.9859725857
 20
-75.1128573903
 10
238.6102171322
 20
-75.6459201569
 10
238.1443885952
 20
-76.154735703
 10
237.5931167893
 20
-76.6342476297
 10
236.961880805
 20
-77.0796901303
 10
236.2569535256
 20
-77.4866359866
 10
235.4853408768
 20
-77.8510407638
 10
234.6547118565
 20
-78.1692832033
 10
233.7733219786
 20
-78.4382002937
 10
232.8499301319
 20
-78.6551192997
 10
231.8937129696
 20
-78.8178843743
 10
230.9141750999
 20
-78.9248779907
 10
229.9210511278
 20
-78.9750368143
 10
228.9242106597
 20
-78.9678624427
 10
227.9335614978
 20
-78.9034259676
 10
226.9589485532
 20
-78.7823677849
 10
226.0100580278
 20
-78.6058913215
 10
225.0963214314
 20
-78.3757498249
 10
224.2268181172
 20
-78.0942315362
 10
223.4101913995
 20
-77.764133316
 10
222.6545556167
 20
-77.3887366461
 10
221.9674220453
 20
-76.9717717037
 10
221.3556184746
 20
-76.5173830984
 10
220.825226481
 20
-76.0300860575
 10
220.3815163136
 20
-75.5147242751
 10
220.0288986568
 20
-74.9764192542
 10
219.7708772966
 20
-74.4205209323
 10
219.6100166053
 20
-73.8525539346
 10
219.5479161875
 20
-73.2781634004
 10
219.5851921115
 20
-72.7030573869
 10
219.7214746047
 20
-72.1329519349
 10
219.9554087117
 20
-71.5735129028
 10
220.2846699351
 20
-71.0303001769
 10
220.705985144
 20
-70.508712261
 10
221.2151681356
 20
-70.0139334339
 10
221.8071577483
 20
-69.5508805721
 10
222.4760714512
 20
-69.1241562471
  0
LWPOLYLINE
  5
D6
330
1F
100
AcDbEntity
  8
0
  6
Continuous
 62
     7
370
    25
100
AcDbPolyline
 90
       54
 70
   128
 43
0.0
 10
224.5973914839
 20
-70.3487682353
 10
224.0467110099
 20
-70.7067813865
 10
223.5732446324
 20
-71.0998809176
 10
223.1836383416
 20
-71.5225483097
 10
222.883361967
 20
-71.968850659
 10
222.676629864
 20
-72.4325225796
 10
222.5663450616
 20
-72.9070550917
 10
222.554055304
 20
-73.3857867677
 10
222.6399331299
 20
-73.8619977289
 10
222.8227729088
 20
-74.3290024067
 10
223.1000081282
 20
-74.7802454408
 10
223.4677466254
 20
-75.2093923495
 10
223.9208268933
 20
-75.6104186792
 10
224.4528878549
 20
-75.977695145
 10
225.0564612552
 20
-76.3060656783
 10
225.7230738801
 20
-76.5909208824
 10
226.4433678017
 20
-76.828262127
 10
227.2072320157
 20
-77.0147573913
 10
228.003943442
 20
-77.1477888271
 10
228.8223176899
 20
-77.2254888511
 10
229.650867109
 20
-77.2467671366
 10
230.4779601569
 20
-77.2113243001
 10
231.2919870232
 20
-77.1196585539
 10
232.0815196558
 20
-76.9730562019
 10
232.83547508
 20
-76.7735752927
 10
233.5432699091
 20
-76.5240164886
 10
234.1949674681
 20
-76.2278826132
 10
234.7814197505
 20
-75.8893309168
 10
235.2943942504
 20
-75.513113924
 10
235.7266896188
 20
-75.1045126665
 10
236.0722381296
 20
-74.6692634647
 10
236.3261883677
 20
-74.2134759776
 10
236.4849753023
 20
-73.7435482703
 10
236.5463707483
 20
-73.266077617
 10
236.5095116829
 20
-72.7877662185
 10
236.37491671
 20
-72.3153288213
 10
236.1444745352
 20
-71.8553971049
 10
235.8214202585
 20
-71.4144276804
 10
235.4102886172
 20
-70.9986108504
 10
234.916851466
 20
-70.6137835733
 10
234.3480353862
 20
-70.2653480659
 10
233.7118249522
 20
-69.9581958107
 10
233.0171517046
 20
-69.6966381395
 10
232.2737669077
 20
-69.4843472238
 10
231.4921063515
 20
-69.3243027383
 10
230.6831428693
 20
-69.2187515806
 10
229.8582319086
 20
-69.169175367
 10
229.0289544686
 20
-69.1762700931
 10
228.2069509819
 20
-69.2399361543
 10
227.4037606301
 20
-69.359280057
 10
226.6306585183
 20
-69.5326259184
 10
225.8984977893
 20
-69.7575408426
 10
225.2175556476
 20
-70.0308671644
 10
224.5973914839
 20
-70.3487682353
  0
LWPOLYLINE
  5
D7
330
1F
100
AcDbEntity
  8
0
  6
Continuous
 62
     7
370
    25
100
AcDbPolyline
 90
       64
 70
   128
 43
0.0
 10
257.1243028232
 20
48.0462008227
 10
257.6572813327
 20
47.7384284922
 10
258.2552371118
 20
47.3931434695
 10
258.9122281133
 20
47.0137799861
 10
259.6217242099
 20
46.6041056638
 10
260.3766763411
 20
46.1681967951
 10
261.1695803923
 20
45.7103832093
 10
261.9925578663
 20
45.2352138591
 10
262.8374250305
 20
44.7474108128
 10
263.6957887351
 20
44.2518291389
 10
264.5591201702
 20
43.7533808621
 10
265.4188352081
 20
43.2570372464
 10
266.2663879168
 20
42.7677109257
 10
267.0933617681
 20
42.2902823322
 10
267.8915324467
 20
41.82948435
 10
268.6529685248
 20
41.3899080689
 10
269.3701047255
 20
40.97591182
 10
270.0358109873
 20
40.5916117239
 10
270.6434723131
 20
40.240835593
 10
271.1870481208
 20
39.9270582525
 10
271.6611404037
 20
39.6534047784
 10
272.0610320072
 20
39.4225949454
 10
272.3827514143
 20
39.2369240789
 10
272.6231027083
 20
39.0982275119
 10
272.779693397
 20
39.0078949475
 10
272.8509719496
 20
38.9668183733
 10
272.836225821
 20
38.9754114636
 10
272.7356021958
 20
39.0335823984
 10
272.5501014032
 20
39.1407528834
 10
272.2815700019
 20
39.2958621494
 10
271.9326718045
 20
39.4973684809
 10
271.5068786576
 20
39.7432697533
 10
271.0084210511
 20
40.03111979
 10
270.4422486056
 20
40.3580511815
 10
269.8139958279
 20
40.7208285208
 10
269.1299004516
 20
41.1158347218
 10
268.3967658999
 20
41.539150488
 10
267.621873041
 20
41.9865687661
 10
266.8129275041
 20
42.4536434157
 10
265.9779664957
 20
42.935724763
 10
265.1252916278
 20
43.428031844
 10
264.2633717829
 20
43.9256659032
 10
263.4007792347
 20
44.4236807334
 10
262.5460809889
 20
44.9171302042
 10
261.7077740805
 20
45.4011056151
 10
260.8941923902
 20
45.8708077466
 10
260.1134181526
 20
46.3215462381
 10
259.3732120677
 20
46.7488742314
 10
258.6809319709
 20
47.1485106086
 10
258.0434550426
 20
47.5165096164
 10
257.4671190328
 20
47.8491974556
 10
256.9576505622
 20
48.1432836348
 10
256.5201155667
 20
48.395825696
 10
256.1588607694
 20
48.6043268793
 10
255.8774745793
 20
48.7667130637
 10
255.6787564691
 20
48.8813656485
 10
255.5646814138
 20
48.9471512034
 10
255.5363801343
 20
48.9634176594
 10
255.5941364633
 20
48.9299958203
 10
255.7373758207
 20
48.8472212193
 10
255.9646750918
 20
48.7159162405
 10
256.2737741519
 20
48.5373865
 10
256.6616015493
 20
48.3134060099
 10
257.1243028232
 20
48.0462008227
  0
LWPOLYLINE
  5
D8
330
1F
100
AcDbEntity
  8
0
  6
Continuous
 62
     7
370
    25
100
AcDbPolyline
 90
       54
 70
   128
 43
0.0
 10
259.2456228559
 20
46.8215888344
 10
258.8664088913
 20
47.0405820819
 10
258.5620019609
 20
47.2163890574
 10
258.3366747013
 20
47.3465391029
 10
258.1935920775
 20
47.4292101619
 10
258.1347583697
 20
47.4632411471
 10
258.1610056489
 20
47.4481538143
 10
258.2719585447
 20
47.3841579093
 10
258.4660661848
 20
47.2721479467
 10
258.7405993961
 20
47.1137078825
 10
259.0917055286
 20
46.9110490534
 10
259.5144571877
 20
46.6670246393
 10
260.0029180885
 20
46.3850581931
 10
260.5502306116
 20
46.0691113512
 10
261.1487137922
 20
45.7236090172
 10
261.7899648802
 20
45.3534141954
 10
262.4649828791
 20
44.9637110445
 10
263.1642932678
 20
44.5599815441
 10
263.8780755012
 20
44.1478832179
 10
264.5963144347
 20
43.7332073382
 10
265.3089238004
 20
43.3217772209
 10
266.0058983317
 20
42.9193634376
 10
266.677460289
 20
42.5316113836
 10
267.3141786563
 20
42.1639724589
 10
267.9071156677
 20
41.8216072979
 10
268.4479473205
 20
41.5093161855
 10
268.9290835601
 20
41.2314848704
 10
269.3437690367
 20
40.992011176
 10
269.6861795829
 20
40.7942675414
 10
269.9515144092
 20
40.6410204031
 10
270.1360418731
 20
40.5344159303
 10
270.2371778459
 20
40.4759621408
 10
270.2534998715
 20
40.4664781315
 10
270.184779435
 20
40.5060876019
 10
270.0319803163
 20
40.5942471687
 10
269.7972473947
 20
40.7297071894
 10
269.4838786613
 20
40.9105735363
 10
269.096267925
 20
41.1343072039
 10
268.639860361
 20
41.3977682112
 10
268.1210643072
 20
41.6972513076
 10
267.5471580076
 20
42.028561098
 10
266.9261991351
 20
42.3870368934
 10
266.2669065206
 20
42.7676544481
 10
265.5785322513
 20
43.1650663377
 10
264.8707452423
 20
43.5737026327
 10
264.1534751925
 20
43.9878123202
 10
263.4367914119
 20
44.4015940954
 10
262.7307592594
 20
44.8092305774
 10
262.0452852202
 20
45.2050081748
 10
261.3899958977
 20
45.5833686985
 10
260.7740875368
 20
45.9389962455
 10
260.206205839
 20
46.2669048426
 10
259.6943205101
 20
46.5624835067
 10
259.2456228559
 20
46.8215888344
  0
ARC
  5
D9
330
1F
100
AcDbEntity
  8
0
  6
Continuous
 62
     1
370
    25
100
AcDbCircle
 10
234.5550330593
 20
-19.9206822321
 30
0.0
 40
5.016107764429168
100
AcDbArc
 50
5.6072726903
 51
65.712866309
  0
LWPOLYLINE
  5
DA
330
1F
100
AcDbEntity
  8
0
  6
Continuous
 62
     1
370
    25
100
AcDbPolyline
 90
       25
 70
   128
 43
0.0
 10
219.5471394342
 20
-19.4305622271
 10
219.5665599117
 20
-19.0709532901
 10
219.6781792546
 20
-18.4990637019
 10
219.8878808994
 20
-17.936431625
 10
220.1935802234
 20
-17.3886487846
 10
220.5922401841
 20
-16.8611598754
 10
221.0798970021
 20
-16.3592062965
 10
221.6517058477
 20
-15.887777727
 10
222.3019824117
 20
-15.4515584748
 10
223.0242651377
 20
-15.0548847074
 10
223.8113745735
 20
-14.7016980239
 10
224.6554892682
 20
-14.3955092433
 10
225.5482187887
 20
-14.139360816
 10
226.4806914702
 20
-13.9357989757
 10
227.4436399452
 20
-13.786846415
 10
228.4274942449
 20
-13.6939835145
 10
229.4224756418
 20
-13.6581337064
 10
230.4186964196
 20
-13.6796526393
 10
231.4062550321
 20
-13.758326848
 10
232.3753368613
 20
-13.8933741334
 10
233.3163108586
 20
-14.0834525917
 10
234.2198255271
 20
-14.3266726847
 10
235.0769004601
 20
-14.620617769
 10
235.8790184544
 20
-14.9623660981
 10
236.6182067588
 20
-15.3485217592
  0
LWPOLYLINE
  5
DB
330
1F
100
AcDbEntity
  8
0
  6
Continuous
 62
     1
370
    25
100
AcDbPolyline
 90
       11
 70
   128
 43
0.0
 10
236.6182067588
 20
-15.3485217592
 10
237.2974115367
 20
-15.7406144291
 10
237.9201742758
 20
-16.1001160454
 10
238.4803049047
 20
-16.4234472106
 10
238.9722364997
 20
-16.7074005212
 10
239.3910808496
 20
-16.9491559118
 10
239.7326751299
 20
-17.1463045549
 10
239.9936237204
 20
-17.2968920084
 10
240.1713342608
 20
-17.3994162123
 10
240.2640395468
 20
-17.4528614159
 10
240.278461013
 20
-17.4611472886
  0
LWPOLYLINE
  5
DC
330
1F
100
AcDbEntity
  8
0
  6
Continuous
 62
     1
370
    25
100
AcDbPolyline
 90
       23
 70
   128
 43
0.0
 10
222.9579527515
 20
-7.4611442052
 10
222.9944825447
 20
-7.4823053957
 10
223.1164514212
 20
-7.5527991862
 10
223.3229153602
 20
-7.6720787482
 10
223.611820688
 20
-7.8389473922
 10
223.9802979075
 20
-8.0517547947
 10
224.4246834123
 20
-8.3083913114
 10
224.9405618259
 20
-8.6062931941
 10
225.5228052269
 20
-8.9425051211
 10
226.1656279725
 20
-9.3136926534
 10
226.8626403701
 20
-9.7161583988
 10
227.6069161778
 20
-10.1459049428
 10
228.3910576358
 20
-10.5986619428
 10
229.207272187
 20
-11.0699254837
 10
230.0474478801
 20
-11.5550210061
 10
230.9032340415
 20
-12.0491217486
 10
231.7661265566
 20
-12.5473139558
 10
232.6275482126
 20
-13.0446516303
 10
233.4789390833
 20
-13.5361874239
 10
234.3118373657
 20
-14.0170421221
 10
235.1179646614
 20
-14.4824348683
 10
235.8893095295
 20
-14.927734443
 10
236.6182067588
 20
-15.3485217592
  0
ENDSEC
  0
SECTION
  2
OBJECTS
  0
DICTIONARY
  5
C
330
0
100
AcDbDictionary
281
     1
  3
ACAD_GROUP
350
D
  3
ACAD_LAYOUT
350
1A
  3
ACAD_MLINESTYLE
350
17
  3
ACAD_PLOTSETTINGS
350
19
  3
ACAD_PLOTSTYLENAME
350
E
  3
ACAD_SCALELIST
350
47
  0
DICTIONARY
  5
D
102
{ACAD_REACTORS
330
C
102
}
330
C
100
AcDbDictionary
281
     1
  0
DICTIONARY
  5
1A
102
{ACAD_REACTORS
330
C
102
}
330
C
100
AcDbDictionary
281
     1
  3
Layout1
350
1E
  3
Layout2
350
26
  3
Model
350
22
  0
DICTIONARY
  5
17
102
{ACAD_REACTORS
330
C
102
}
330
C
100
AcDbDictionary
281
     1
  3
Standard
350
18
  0
DICTIONARY
  5
19
102
{ACAD_REACTORS
330
C
102
}
330
C
100
AcDbDictionary
281
     1
  0
ACDBDICTIONARYWDFLT
  5
E
102
{ACAD_REACTORS
330
C
102
}
330
C
100
AcDbDictionary
281
     1
  3
Normal
350
F
100
AcDbDictionaryWithDefault
340
F
  0
DICTIONARY
  5
47
102
{ACAD_REACTORS
330
C
102
}
330
C
100
AcDbDictionary
281
     1
  3
A0
350
48
  3
A1
350
49
  3
A2
350
4A
  3
A3
350
4B
  3
A4
350
4C
  3
A5
350
4D
  3
A6
350
4E
  3
A7
350
4F
  3
A8
350
50
  3
A9
350
51
  3
B0
350
52
  3
B1
350
53
  3
B2
350
54
  3
B3
350
55
  3
B4
350
56
  3
B5
350
57
  3
B6
350
58
  3
B7
350
59
  3
B8
350
5A
  3
B9
350
5B
  3
C0
350
5C
  3
C1
350
5D
  3
C2
350
5E
  3
C3
350
5F
  3
C4
350
60
  3
C5
350
61
  3
C6
350
62
  3
C7
350
63
  3
C8
350
64
  3
C9
350
65
  3
D0
350
66
  3
D1
350
67
  3
D2
350
68
  0
LAYOUT
  5
1E
102
{ACAD_REACTORS
330
1A
102
}
330
1A
100
AcDbPlotSettings
  1

  2
none_device
  4

  6

 40
0.0
 41
0.0
 42
0.0
 43
0.0
 44
0.0
 45
0.0
 46
0.0
 47
0.0
 48
0.0
 49
0.0
140
0.0
141
0.0
142
1.0
143
1.0
 70
   688
 72
     1
 73
     0
 74
     5
  7

 75
    16
147
1.0
148
0.0
149
0.0
100
AcDbLayout
  1
Layout1
 70
     1
 71
     1
 10
0.0
 20
0.0
 11
420.0
 21
297.0
 12
0.0
 22
0.0
 32
0.0
 14
1.0000000000E+20
 24
1.0000000000E+20
 34
1.0000000000E+20
 15
-1.0000000000E+20
 25
-1.0000000000E+20
 35
-1.0000000000E+20
146
0.0
 13
0.0
 23
0.0
 33
0.0
 16
1.0
 26
0.0
 36
0.0
 17
0.0
 27
1.0
 37
0.0
 76
     0
330
1B
  0
LAYOUT
  5
26
102
{ACAD_REACTORS
330
1A
102
}
330
1A
100
AcDbPlotSettings
  1

  2
none_device
  4

  6

 40
0.0
 41
0.0
 42
0.0
 43
0.0
 44
0.0
 45
0.0
 46
0.0
 47
0.0
 48
0.0
 49
0.0
140
0.0
141
0.0
142
1.0
143
1.0
 70
   688
 72
     1
 73
     0
 74
     5
  7

 75
    16
147
1.0
148
0.0
149
0.0
100
AcDbLayout
  1
Layout2
 70
     1
 71
     2
 10
0.0
 20
0.0
 11
0.0
 21
0.0
 12
0.0
 22
0.0
 32
0.0
 14
0.0
 24
0.0
 34
0.0
 15
0.0
 25
0.0
 35
0.0
146
0.0
 13
0.0
 23
0.0
 33
0.0
 16
1.0
 26
0.0
 36
0.0
 17
0.0
 27
1.0
 37
0.0
 76
     0
330
23
  0
LAYOUT
  5
22
102
{ACAD_REACTORS
330
1A
102
}
330
1A
100
AcDbPlotSettings
  1

  2
none_device
  4
Letter_(8.50_x_11.00_Inches)
  6

 40
6.35
 41
6.35
 42
6.35000508
 43
6.35000508
 44
215.9
 45
279.4
 46
0.0
 47
0.0
 48
0.0
 49
0.0
140
0.0
141
0.0
142
1.0
143
1.0
 70
  1712
 72
     1
 73
     0
 74
     0
  7

 75
     0
147
1.0
148
0.0
149
0.0
100
AcDbLayout
  1
Model
 70
     1
 71
     0
 10
0.0
 20
0.0
 11
279.4
 21
215.9
 12
0.0
 22
0.0
 32
0.0
 14
0.0
 24
0.0
 34
0.0
 15
279.4
 25
215.9
 35
0.0
146
0.0
 13
0.0
 23
0.0
 33
0.0
 16
1.0
 26
0.0
 36
0.0
 17
0.0
 27
1.0
 37
0.0
 76
     0
330
1F
331
29
  0
MLINESTYLE
  5
18
102
{ACAD_REACTORS
330
17
102
}
330
17
100
AcDbMlineStyle
  2
Standard
 70
     0
  3

 62
   256
 51
90.0
 52
90.0
 71
     2
 49
0.5
 62
   256
  6
BYLAYER
 49
-0.5
 62
   256
  6
BYLAYER
  0
ACDBPLACEHOLDER
  5
F
102
{ACAD_REACTORS
330
E
102
}
330
E
  0
SCALE
  5
48
102
{ACAD_REACTORS
330
47
102
}
330
47
100
AcDbScale
 70
     0
300
1:1
140
1.0
141
1.0
290
     1
  0
SCALE
  5
49
102
{ACAD_REACTORS
330
47
102
}
330
47
100
AcDbScale
 70
     0
300
1:2
140
1.0
141
2.0
290
     0
  0
SCALE
  5
4A
102
{ACAD_REACTORS
330
47
102
}
330
47
100
AcDbScale
 70
     0
300
1:4
140
1.0
141
4.0
290
     0
  0
SCALE
  5
4B
102
{ACAD_REACTORS
330
47
102
}
330
47
100
AcDbScale
 70
     0
300
1:5
140
1.0
141
5.0
290
     0
  0
SCALE
  5
4C
102
{ACAD_REACTORS
330
47
102
}
330
47
100
AcDbScale
 70
     0
300
1:8
140
1.0
141
8.0
290
     0
  0
SCALE
  5
4D
102
{ACAD_REACTORS
330
47
102
}
330
47
100
AcDbScale
 70
     0
300
1:10
140
1.0
141
10.0
290
     0
  0
SCALE
  5
4E
102
{ACAD_REACTORS
330
47
102
}
330
47
100
AcDbScale
 70
     0
300
1:16
140
1.0
141
16.0
290
     0
  0
SCALE
  5
4F
102
{ACAD_REACTORS
330
47
102
}
330
47
100
AcDbScale
 70
     0
300
1:20
140
1.0
141
20.0
290
     0
  0
SCALE
  5
50
102
{ACAD_REACTORS
330
47
102
}
330
47
100
AcDbScale
 70
     0
300
1:30
140
1.0
141
30.0
290
     0
  0
SCALE
  5
51
102
{ACAD_REACTORS
330
47
102
}
330
47
100
AcDbScale
 70
     0
300
1:40
140
1.0
141
40.0
290
     0
  0
SCALE
  5
52
102
{ACAD_REACTORS
330
47
102
}
330
47
100
AcDbScale
 70
     0
300
1:50
140
1.0
141
50.0
290
     0
  0
SCALE
  5
53
102
{ACAD_REACTORS
330
47
102
}
330
47
100
AcDbScale
 70
     0
300
1:100
140
1.0
141
100.0
290
     0
  0
SCALE
  5
54
102
{ACAD_REACTORS
330
47
102
}
330
47
100
AcDbScale
 70
     0
300
2:1
140
2.0
141
1.0
290
     0
  0
SCALE
  5
55
102
{ACAD_REACTORS
330
47
102
}
330
47
100
AcDbScale
 70
     0
300
4:1
140
4.0
141
1.0
290
     0
  0
SCALE
  5
56
102
{ACAD_REACTORS
330
47
102
}
330
47
100
AcDbScale
 70
     0
300
8:1
140
8.0
141
1.0
290
     0
  0
SCALE
  5
57
102
{ACAD_REACTORS
330
47
102
}
330
47
100
AcDbScale
 70
     0
300
10:1
140
10.0
141
1.0
290
     0
  0
SCALE
  5
58
102
{ACAD_REACTORS
330
47
102
}
330
47
100
AcDbScale
 70
     0
300
100:1
140
100.0
141
1.0
290
     0
  0
SCALE
  5
59
102
{ACAD_REACTORS
330
47
102
}
330
47
100
AcDbScale
 70
     0
300
1/128" = 1'-0"
140
0.0078125
141
12.0
290
     0
  0
SCALE
  5
5A
102
{ACAD_REACTORS
330
47
102
}
330
47
100
AcDbScale
 70
     0
300
1/64" = 1'-0"
140
0.015625
141
12.0
290
     0
  0
SCALE
  5
5B
102
{ACAD_REACTORS
330
47
102
}
330
47
100
AcDbScale
 70
     0
300
1/32" = 1'-0"
140
0.03125
141
12.0
290
     0
  0
SCALE
  5
5C
102
{ACAD_REACTORS
330
47
102
}
330
47
100
AcDbScale
 70
     0
300
1/16" = 1'-0"
140
0.0625
141
12.0
290
     0
  0
SCALE
  5
5D
102
{ACAD_REACTORS
330
47
102
}
330
47
100
AcDbScale
 70
     0
300
3/32" = 1'-0"
140
0.09375
141
12.0
290
     0
  0
SCALE
  5
5E
102
{ACAD_REACTORS
330
47
102
}
330
47
100
AcDbScale
 70
     0
300
1/8" = 1'-0"
140
0.125
141
12.0
290
     0
  0
SCALE
  5
5F
102
{ACAD_REACTORS
330
47
102
}
330
47
100
AcDbScale
 70
     0
300
3/16" = 1'-0"
140
0.1875
141
12.0
290
     0
  0
SCALE
  5
60
102
{ACAD_REACTORS
330
47
102
}
330
47
100
AcDbScale
 70
     0
300
1/4" = 1'-0"
140
0.25
141
12.0
290
     0
  0
SCALE
  5
61
102
{ACAD_REACTORS
330
47
102
}
330
47
100
AcDbScale
 70
     0
300
3/8" = 1'-0"
140
0.375
141
12.0
290
     0
  0
SCALE
  5
62
102
{ACAD_REACTORS
330
47
102
}
330
47
100
AcDbScale
 70
     0
300
1/2" = 1'-0"
140
0.5
141
12.0
290
     0
  0
SCALE
  5
63
102
{ACAD_REACTORS
330
47
102
}
330
47
100
AcDbScale
 70
     0
300
3/4" = 1'-0"
140
0.75
141
12.0
290
     0
  0
SCALE
  5
64
102
{ACAD_REACTORS
330
47
102
}
330
47
100
AcDbScale
 70
     0
300
1" = 1'-0"
140
1.0
141
12.0
290
     0
  0
SCALE
  5
65
102
{ACAD_REACTORS
330
47
102
}
330
47
100
AcDbScale
 70
     0
300
1-1/2" = 1'-0"
140
1.5
141
12.0
290
     0
  0
SCALE
  5
66
102
{ACAD_REACTORS
330
47
102
}
330
47
100
AcDbScale
 70
     0
300
3" = 1'-0"
140
3.0
141
12.0
290
     0
  0
SCALE
  5
67
102
{ACAD_REACTORS
330
47
102
}
330
47
100
AcDbScale
 70
     0
300
6" = 1'-0"
140
6.0
141
12.0
290
     0
  0
SCALE
  5
68
102
{ACAD_REACTORS
330
47
102
}
330
47
100
AcDbScale
 70
     0
300
1'-0" = 1'-0"
140
12.0
141
12.0
290
     0
  0
ENDSEC
  0
EOF
